Срок регистрации домена 88MEDIA.RU закончился

Услуга по регистрации доменного имени 88MEDIA.RU временно не предоставляется.

Продлить домен

Если администратор домена не продлит регистрацию, домен освободится.

Whois 88MEDIA.RU

Авторизация



Регистрация | Забыли свой пароль?

Dethklok - Awaken табЫ



Здравствуйте, вы сейчас просматриваете страницу с песней Awaken табЫ - Dethklok, которую можно скачать и слушать онлайн без регистрации и на высокой скорости. Также на этой странице вы можете найти текст к этой песни

Исполнитель: Dethklok

Название mp3: Awaken табЫ

Длительность: 03:37

Добавлен: 2016-08-06

Просмотрено: 978



Скачать

Ещё песни исполнителя Dethklok


Текст песни:

Табы мля!
E-----------
B-----------
G-----------x9
D-----------
A--3-3-5-6--
E-----------

E------------------------------------------------------------------- R
B------------------------------------------------------------------- E
G------------------------------------------------------------------- P
D-----5-3-------------5-3-------------5-3-------------5-3----------- E
A-3-3-----6-5-3-----------6-5-3-----------6-5-3-----------6-5-3-5-6- A
A---------------3-4-4-----------4-5-5-----------5-6-6--------------- T

E-----------------------------------------------
B-----------------------------------------------
G-----------------------------------------------
D-5-------8-------3-------5-------8-------3--3--
A-3-------6-------1-------3-------6-------1--1--
E-----------------------------------------------

E---------------------------------------------------
B---------------------------------------------------
G---------------------------------------------------X2
D-5---5---8-8-8-8-8---------------------------------
A-3-5-3-5-6-6-6-6-6---------------------------------
E---3---3----P.M----0-000-0-0-000-0-0-000-0-0-000-0-

E--------------------------------- ---------
B--------------------------------- ---------
G---------------------------------X2 ---------X16
D-5---5---5---5---6---6---8---8--- ---------
A-3-5-3-5-3-5-3-5-4-6-4-6-6-8-6-8- -3-3-5-6-
E---3---3---3---3---4---4---6---6- ---------

Mustakrakish,
Mustakrakish,

The time has come, to awaken him.

I call upon the ancient lords of the underworld,
To bring forth this beast and,

Awaken, awaken, awaken, awaken,
Take the land, that must be taken.
Awaken, awaken, awaken, awaken,
Devour worlds, smite forsaken

Rise up from your thousandth year of sleep,
Break forth from your grave eternally.

I command you to rise, rise, rise, rise,
rise, rise, rise, rise.

I'm the conjurer of demons,
I'm the father of your death.

I bring forth the ancient evil,
I control his every breath.

I instigate your misfortune,
With the birth of killing trolls.

I awaken armageddon,
Feeding on a thousand souls.

Awaken,
Awaken,
Awaken,
Awaken,

(Solo)

Mustakrakish,(musta)
Mustakrakish,(musta)
Mustakrakish,(musta)
Mustakrakish,(musta),

Mustakrakish,(musta)
Mustakrakish,(musta)
Mustakrakish,(musta)
Mustakrakish,(musta)

Awaken, awaken, awaken, awaken,
Take the land, that must be taken.
Awaken, awaken, awaken, awaken,
Devour worlds, smite forsaken

Rise up from your thousandth year of sleep,
Break forth from your grave eternally.

We will die and then we'll all be burned
Mustakrakish king and death to worlds.

I command you to
Rise, rise, rise, rise, rise, rise, rise, rise,
Rise, rise, rise, rise, rise, rise, rise, rise,
And awaken.



Клип Tutorial on How to play Awaken by Dethklok



Похожие клипы:

  • Dethklok The lost vikings (w/lyrics)
    Dethklok The lost vikings (w/lyrics)
  • Apologise -The Cutting Edge: Going for the Gold
    Apologise -The Cutting Edge: Going for the Gold
  • Dethklok- Awaken (MustaKrakish) {FULL OFFICAL MUSIC VIDEO}
    Dethklok- Awaken (MustaKrakish) {FULL OFFICAL MUSIC VIDEO}
  • Dethklok- Awaken (MustaKrakish) {FULL OFFICAL MUSIC VIDEO}
    Dethklok- Awaken (MustaKrakish) {FULL OFFICAL MUSIC VIDEO}
  • Dethklok - Better Metal Snake w/Lyrics (HQ)
    Dethklok - Better Metal Snake w/Lyrics (HQ)
  • Dethklok Bloodtrocuted (with lyrics)
    Dethklok Bloodtrocuted (with lyrics)
  • Dethalbum-Castratikron
    Dethalbum-Castratikron
  • Dethklok-Birthday Dethday (Full and Official Music Video)
    Dethklok-Birthday Dethday (Full and Official Music Video)
  • Dethklok-Hatredcopter Music Video
    Dethklok-Hatredcopter Music Video
  • Face Fisted (New Phrygian Song)
    Face Fisted (New Phrygian Song)
  • Dethklok-Go Into The Water
    Dethklok-Go Into The Water
  • Metalocalypse  Dethklok- Blood Ocean *Full (lyrics in descriptions)
    Metalocalypse Dethklok- Blood Ocean *Full (lyrics in descriptions)
  • Dethklok - Murder Train A Comin' [Album Version]
    Dethklok - Murder Train A Comin' [Album Version]
  • Stratovarius - Awaken The Giant
    Stratovarius - Awaken The Giant
  • Christy Carlson Romano - We ll Awaken
    Christy Carlson Romano - We ll Awaken




Поиск